Candle song 3
(3/4 alt 6/8)
[Tab/Fig. 1]
e|---9---9----|---9---9----|
H|-----10--10-|-----10--10-|
G|------------|------------|
D|------------|------------|
A|-0----------|------------|
E|------------|------------|

[Tab/Fig. 2]
e|---10--10---|---10--10---|
H|-----10--10-|-----10--10-|
G|------------|------------|
D|-0----------|------------|
A|------------|------------|
E|------------|------------|


its [Fig1]christmas again so we lit all the [Fig2]candles
and we [Fig1]tried to pretend that your room was a [Fig2]palace
but we [Fig1]cant seem to shake of the fear
that nothing is [Fig2]different, that no-one has [Fig1]changed
nothing has [Fig2]changed

[C]i stand by my [G]lover as she stands by [D]me
[C]chained to my [G]lover as shes chained to [D]me

weve [Fig1]been through the past and the pain
the love that was [Fig2]lost
and we [Fig1]know all the answers
weve taken our chances and [Fig2]let them drift by
its [Fig1]time to be free yeah its [Fig2]time to be free
[Fig1]standing s close i cant [Fig2]see you at all

[C]i stand by my [G]lover as she stands by [D]me
[C]chained to my [G]lover as shes chained to [D]me

but your [C]books dont say much about
[G]living your life like a [D]thief
yeah were [C]handcuffed and chained
we play [G]games and play them out [D]slowly

[C]i stand by my [G]lover as she stands by [D]me
[C]chained to my [G]lover as shes chained to [D]me

[C]i stand by my [G]lover as she stands by [D]me
[C]chained to my [G]lover as shes chained to [D]me

4AD, Written by Neil Halstead