All Your Tears
capo 2nd fret 
chords relative to capo


D G D G D G A 

D                          G
Where's the magic that you wear
D
That keeps you safe
              G
And keeps you feeling free
D               Em
Whose arms have held you 
         G
That you don't know who you are
   A
Anymore

|-------------------------------------------|
|-2--0--3---0--2-----2--0--3---2--0---------|
|------------------------------------2------|
|---------------------------------------0---|
|-------------------------------------------|
|-------------------------------------------|

D                      G
Is that music that you hear
D                      G
A distant sound from a distant year
D         Em
Something changed
        G
And you lost your defense
             A
And now it's gone

|-------------------------------------------|
|-2--0--3---0--2-----2--0--3---2--0---------|
|------------------------------------2------|
|-------------------------------------------|
|-------------------------------------------|
|-------------------------------------------|

Chorus:

G              D
Yeah something changed my friend
G              D
Yeah something changed
G        D
All your tears have come at once
               A
And now you're lost

Chorus melody (fret numbers relative to capo): 
  G             D     G             D     G             D
|---------------5-------------------5-------------------5---|
|-0--2--3--5----------0--2--3--5----------0--2--3--5--------|
|-----------------------------------------------------------|
|-----------------------------------------------------------|
|-----------------------------------------------------------|
|-----------------------------------------------------------|

  A                                 D
|-----------------------------------------------------------|
|-2-------------3-/-5---------------------------------------|
|---------------4-/-6---------0-----------------------------|
|---------------5-/-7------------4--0-----------------------|
|-----------------------------------------------------------|
|-----------------------------------------------------------|

D G D G D G A

D                          G
What's the sense in losing ground
D                   G
A hard sun is never hard to find
D               Em
Just close your eyes
          G
Turn your face to the wall
              A
And you'll be fine

D                          G
Where's the magic that you wear
D                
That keeps you safe
              G
And keeps you feelin' free
D               Em
Whose arms have held you
         G
That you don't know who you are
   A
Anymore

G              D
Yeah something changed my friend
G              D
Yeah something changed
G             D
Yeah all your tears have come at once
               A
And now you're lost
              D
Yeah now your lost

Outro:
D G D G D G A
D G D G D G A
D




4AD, Written by Neil Halstead
Tabbed by Jason